Avatar opala_club_chile

Opala 2010

bueno aqui subiendo foto despues de un largo tiempo sin aserlo xD

saludos




el 04 noviembre 2009 279 Vistas



Avatar musclee

Musclee el 06/11/2009

Saludos desde Brasil!

wena foto!

passate en mi log ...
ahora tengo fotos de nuestro encuentro periódico de Opalas!


Saludos!


Josias.


Avatar j_x_l_i_0_c13

J_x_l_i_0_c13 el 06/11/2009

Wena foto viejo ke wena ke aya un club de opalas sih me enkntan los opala viejo mas ke nada sih el 78 el de los focos redondos atras ese tiene la palanca en el volante
xau kdte


Avatar the_king_racing

The_king_racing el 05/11/2009

Saludos pelao


pasate x el log
adeos


CLUB THE KING OF RACING


Avatar returns_nharmony

Returns_nharmony el 04/11/2009

para mi es un camaro
no creo que al opala lo fabriquen nuevamente

saludos



Mientras que el corazón tiene deseo, la imaginación conserva ilusiones.


Avatar yoryo_a_n_d_r_e

Yoryo_a_n_d_r_e el 04/11/2009

--------------160-----180-----------------------------------
-------140------------------200-----------------------------
-------------------------------------------------------------
----120--------------------------220-------------------------
--------------------------------------------------------------
-100------------------------------240----------5--6--7------
--------------------o------------------------4----------/8---
--80----------------\\------------260------3--------//----9--
----------------------\\-------------------2-------o------10-
---60------------------\\-------280--------1-------------11--
----40------------------\\-------------------0---------12----
------20------------------\--300-----------------RPM--------
----------0----- km/h ---320---------------------------------
-------------------yoryo andres TUNING----------------------
----------------------------------------------------------------


Avatar nico_chevroletss

Nico_chevroletss el 04/11/2009

paso amigo!!!


muy buenos los opala!!!


saludos!!!!




[[[[[nikko]]]]]


Avatar mi_corsa_2007

Mi_corsa_2007 el 04/11/2009

parece un camaro el nuevo opala




5 Grupos favoritos »

  • corsa_group

    Corsa_group

    Bienvenidos al nuevo grupos de los Corsas, este humilde vehiculo que tiene miles de seguidores en el Mundo... Quien no ha visto un Corsita bien tuneado?

    Asy que visitanos y sube las fotos de tu Corsa...

    SOLO CORSAS -


  • poder_chevrolet

    Poder_chevrolet

    Si estas acá es porque te gusta CHEVROLET.




Tag - Party
Cargando...